ISO-10303-21;
HEADER;
FILE_DESCRIPTION (( 'STEP AP214' ),
    '1' );
FILE_NAME ('BS1ISOK6376 FULLVAC.STEP',
    '2024-05-21T15:00:45',
    ( '' ),
    ( '' ),
    'SwSTEP 2.0',
    'SolidWorks 2017',
    '' );
FILE_SCHEMA (( 'AUTOMOTIVE_DESIGN' ));
ENDSEC;

DATA;
#1 = FACE_OUTER_BOUND ( 'NONE', #345, .T. ) ;
#2 = DIRECTION ( 'NONE',  ( 0.0000000000000000000, 1.000000000000000000, 0.0000000000000000000 ) ) ;
#3 = CARTESIAN_POINT ( 'NONE',  ( 0.0000000000000000000, -11.70000000000000800, 0.0000000000000000000 ) ) ;
#4 = CYLINDRICAL_SURFACE ( 'NONE', #135, 35.00000000000000700 ) ;
#5 = AXIS2_PLACEMENT_3D ( 'NONE', #269, #121, #331 ) ;
#6 = CARTESIAN_POINT ( 'NONE',  ( 30.10000000000058100, -4.400000000000010100, 0.0000000000000000000 ) ) ;
#7 = DIRECTION ( 'NONE',  ( 0.0000000000000000000, 0.0000000000000000000, 1.000000000000000000 ) ) ;
#8 = EDGE_LOOP ( 'NONE', ( #50 ) ) ;
#9 = CARTESIAN_POINT ( 'NONE',  ( 0.0000000000000000000, -9.700000000000006400, 0.0000000000000000000 ) ) ;
#10 = CARTESIAN_POINT ( 'NONE',  ( 0.0000000000000000000, -4.400000000000010100, 0.0000000000000000000 ) ) ;
#11 = AXIS2_PLACEMENT_3D ( 'NONE', #315, #372, #283 ) ;
#12 = DIRECTION ( 'NONE',  ( 0.0000000000000000000, 0.0000000000000000000, -1.000000000000000000 ) ) ;
#13 = SURFACE_SIDE_STYLE ('',( #336 ) ) ;
#14 = VERTEX_POINT ( 'NONE', #127 ) ;
#15 = SURFACE_STYLE_USAGE ( .BOTH. , #13 ) ;
#16 = AXIS2_PLACEMENT_3D ( 'NONE', #352, #116, #328 ) ;
#17 = VERTEX_POINT ( 'NONE', #115 ) ;
#18 = CARTESIAN_POINT ( 'NONE',  ( 0.0000000000000000000, 0.0000000000000000000, 0.0000000000000000000 ) ) ;
#19 = ADVANCED_BREP_SHAPE_REPRESENTATION ( 'BS1ISOK6376 FULLVAC', ( #210, #103 ), #139 ) ;
#20 = ORIENTED_EDGE ( 'NONE', *, *, #200, .T. ) ;
#21 = CARTESIAN_POINT ( 'NONE',  ( 44.95000000000000300, -9.700000000000006400, 0.0000000000000000000 ) ) ;
#22 = PRODUCT_CONTEXT ( 'NONE', #105, 'mechanical' ) ;
#23 = AXIS2_PLACEMENT_3D ( 'NONE', #108, #208, #40 ) ;
#24 = FACE_OUTER_BOUND ( 'NONE', #213, .T. ) ;
#25 = CARTESIAN_POINT ( 'NONE',  ( 0.0000000000000000000, -9.700000000000006400, 44.95000000000000300 ) ) ;
#26 = VERTEX_POINT ( 'NONE', #66 ) ;
#27 = STYLED_ITEM ( 'NONE', ( #173 ), #210 ) ;
#28 = AXIS2_PLACEMENT_3D ( 'NONE', #126, #273, #302 ) ;
#29 = EDGE_LOOP ( 'NONE', ( #73 ) ) ;
#30 = CYLINDRICAL_SURFACE ( 'NONE', #5, 47.50000000000000000 ) ;
#31 = AXIS2_PLACEMENT_3D ( 'NONE', #21, #61, #203 ) ;
#32 = FACE_OUTER_BOUND ( 'NONE', #95, .T. ) ;
#33 = DIRECTION ( 'NONE',  ( 0.0000000000000000000, 0.0000000000000000000, 1.000000000000000000 ) ) ;
#34 = FACE_OUTER_BOUND ( 'NONE', #367, .T. ) ;
#35 = EDGE_CURVE ( 'NONE', #26, #26, #107, .T. ) ;
#36 = ORIENTED_EDGE ( 'NONE', *, *, #89, .F. ) ;
#37 = CARTESIAN_POINT ( 'NONE',  ( 46.69999999999999600, -11.70000000000000800, 0.0000000000000000000 ) ) ;
#38 = EDGE_LOOP ( 'NONE', ( #137 ) ) ;
#39 = CARTESIAN_POINT ( 'NONE',  ( 0.0000000000000000000, -3.011805698386599500, 0.0000000000000000000 ) ) ;
#40 = DIRECTION ( 'NONE',  ( 0.0000000000000000000, 0.0000000000000000000, 1.000000000000000000 ) ) ;
#41 = CARTESIAN_POINT ( 'NONE',  ( 0.0000000000000000000, -3.011805698386599500, 0.0000000000000000000 ) ) ;
#42 = DIRECTION ( 'NONE',  ( 0.0000000000000000000, -0.0000000000000000000, 1.000000000000000000 ) ) ;
#43 = DIRECTION ( 'NONE',  ( 0.0000000000000000000, 0.0000000000000000000, 1.000000000000000000 ) ) ;
#44 = CIRCLE ( 'NONE', #263, 35.00000000000000700 ) ;
#45 = FACE_OUTER_BOUND ( 'NONE', #98, .T. ) ;
#46 = FILL_AREA_STYLE ('',( #153 ) ) ;
#47 = ADVANCED_FACE ( 'NONE', ( #186, #124 ), #62, .T. ) ;
#48 = EDGE_LOOP ( 'NONE', ( #197 ) ) ;
#49 = DIRECTION ( 'NONE',  ( 0.0000000000000000000, 1.000000000000000000, 0.0000000000000000000 ) ) ;
#50 = ORIENTED_EDGE ( 'NONE', *, *, #229, .T. ) ;
#51 = EDGE_CURVE ( 'NONE', #163, #163, #59, .T. ) ;
#52 = AXIS2_PLACEMENT_3D ( 'NONE', #87, #349, #12 ) ;
#53 = CARTESIAN_POINT ( 'NONE',  ( 0.0000000000000000000, -6.189583207305960700, 47.32352941176471000 ) ) ;
#54 = ADVANCED_FACE ( 'NONE', ( #252, #371 ), #170, .T. ) ;
#55 = SHAPE_DEFINITION_REPRESENTATION ( #122, #19 ) ;
#56 = APPLICATION_PROTOCOL_DEFINITION ( 'draft international standard', 'automotive_design', 1998, #105 ) ;
#57 = PRESENTATION_LAYER_ASSIGNMENT (  '', '', ( #348 ) ) ;
#58 = ADVANCED_FACE ( 'NONE', ( #321, #193 ), #104, .F. ) ;
#59 = CIRCLE ( 'NONE', #85, 35.04999999999999700 ) ;
#60 = AXIS2_PLACEMENT_3D ( 'NONE', #72, #247, #276 ) ;
#61 = DIRECTION ( 'NONE',  ( 0.0000000000000000000, -1.000000000000000000, -0.0000000000000000000 ) ) ;
#62 = PLANE ( 'NONE',  #325 ) ;
#63 = CIRCLE ( 'NONE', #255, 47.32352941176471000 ) ;
#64 = EDGE_CURVE ( 'NONE', #17, #17, #251, .T. ) ;
#65 = DIRECTION ( 'NONE',  ( 0.0000000000000000000, 0.0000000000000000000, 1.000000000000000000 ) ) ;
#66 = CARTESIAN_POINT ( 'NONE',  ( 0.0000000000000000000, -3.011805698386599500, 47.50000000000000700 ) ) ;
#67 = ORIENTED_EDGE ( 'NONE', *, *, #244, .T. ) ;
#68 = DIRECTION ( 'NONE',  ( 0.0000000000000000000, 1.000000000000000000, 0.0000000000000000000 ) ) ;
#69 = CARTESIAN_POINT ( 'NONE',  ( 0.0000000000000000000, -4.400000000000010100, 35.04999999999999700 ) ) ;
#70 = AXIS2_PLACEMENT_3D ( 'NONE', #258, #350, #233 ) ;
#71 = ADVANCED_FACE ( 'NONE', ( #32, #167 ), #96, .T. ) ;
#72 = CARTESIAN_POINT ( 'NONE',  ( 0.0000000000000000000, -10.90000000000000900, 0.0000000000000000000 ) ) ;
#73 = ORIENTED_EDGE ( 'NONE', *, *, #64, .T. ) ;
#74 =( LENGTH_UNIT ( ) NAMED_UNIT ( * ) SI_UNIT ( .MILLI., .METRE. ) );
#75 = FACE_BOUND ( 'NONE', #278, .T. ) ;
#76 = ORIENTED_EDGE ( 'NONE', *, *, #274, .F. ) ;
#77 = ADVANCED_FACE ( 'NONE', ( #162, #183 ), #259, .T. ) ;
#78 = FACE_OUTER_BOUND ( 'NONE', #132, .T. ) ;
#79 = ADVANCED_FACE ( 'NONE', ( #332, #24 ), #343, .F. ) ;
#80 = VERTEX_POINT ( 'NONE', #309 ) ;
#81 =( NAMED_UNIT ( * ) PLANE_ANGLE_UNIT ( ) SI_UNIT ( $, .RADIAN. ) );
#82 = EDGE_LOOP ( 'NONE', ( #112 ) ) ;
#83 =( NAMED_UNIT ( * ) SI_UNIT ( $, .STERADIAN. ) SOLID_ANGLE_UNIT ( ) );
#84 = CIRCLE ( 'NONE', #174, 47.50000000000000000 ) ;
#85 = AXIS2_PLACEMENT_3D ( 'NONE', #215, #145, #91 ) ;
#86 = ORIENTED_EDGE ( 'NONE', *, *, #322, .F. ) ;
#87 = CARTESIAN_POINT ( 'NONE',  ( 0.0000000000000000000, -6.300000000000014000, 0.0000000000000000000 ) ) ;
#88 = EDGE_LOOP ( 'NONE', ( #290 ) ) ;
#89 = EDGE_CURVE ( 'NONE', #293, #293, #44, .T. ) ;
#90 = DIRECTION ( 'NONE',  ( 0.0000000000000000000, 0.0000000000000000000, -1.000000000000000000 ) ) ;
#91 = DIRECTION ( 'NONE',  ( 0.0000000000000000000, 0.0000000000000000000, 1.000000000000000000 ) ) ;
#92 = CARTESIAN_POINT ( 'NONE',  ( 0.0000000000000000000, -0.5000000000000108800, 0.0000000000000000000 ) ) ;
#93 = DIRECTION ( 'NONE',  ( 0.0000000000000000000, 0.0000000000000000000, 1.000000000000000000 ) ) ;
#94 = CARTESIAN_POINT ( 'NONE',  ( 0.0000000000000000000, -6.388194301613416400, 0.0000000000000000000 ) ) ;
#95 = EDGE_LOOP ( 'NONE', ( #20 ) ) ;
#96 = CYLINDRICAL_SURFACE ( 'NONE', #248, 47.50000000000000000 ) ;
#97 = FACE_OUTER_BOUND ( 'NONE', #161, .T. ) ;
#98 = EDGE_LOOP ( 'NONE', ( #264 ) ) ;
#99 = AXIS2_PLACEMENT_3D ( 'NONE', #94, #359, #43 ) ;
#100 = COLOUR_RGB ( '',0.7921568627450980000, 0.8196078431372548800, 0.9333333333333333500 ) ;
#101 = FILL_AREA_STYLE ('',( #250 ) ) ;
#102 = ADVANCED_FACE ( 'NONE', ( #351, #275 ), #30, .T. ) ;
#103 = AXIS2_PLACEMENT_3D ( 'NONE', #18, #369, #311 ) ;
#104 = CYLINDRICAL_SURFACE ( 'NONE', #365, 38.39999999999999900 ) ;
#105 = APPLICATION_CONTEXT ( 'automotive_design' ) ;
#106 = CIRCLE ( 'NONE', #156, 47.50000000000000000 ) ;
#107 = CIRCLE ( 'NONE', #287, 47.50000000000000700 ) ;
#108 = CARTESIAN_POINT ( 'NONE',  ( 0.0000000000000000000, -3.210416792694063700, 0.0000000000000000000 ) ) ;
#109 = EDGE_LOOP ( 'NONE', ( #141 ) ) ;
#110 = ORIENTED_EDGE ( 'NONE', *, *, #200, .F. ) ;
#111 = CIRCLE ( 'NONE', #70, 35.04999999999999700 ) ;
#112 = ORIENTED_EDGE ( 'NONE', *, *, #35, .T. ) ;
#113 = DIRECTION ( 'NONE',  ( -0.0000000000000000000, 1.000000000000000000, -0.0000000000000000000 ) ) ;
#114 = EDGE_LOOP ( 'NONE', ( #249 ) ) ;
#115 = CARTESIAN_POINT ( 'NONE',  ( 0.0000000000000000000, -9.700000000000001100, -38.39999999999999900 ) ) ;
#116 = DIRECTION ( 'NONE',  ( 0.0000000000000000000, 1.000000000000000000, 0.0000000000000000000 ) ) ;
#117 = CIRCLE ( 'NONE', #52, 38.39999999999999900 ) ;
#118 = AXIS2_PLACEMENT_3D ( 'NONE', #10, #361, #93 ) ;
#119 = CARTESIAN_POINT ( 'NONE',  ( 0.0000000000000000000, -9.700000000000001100, 0.0000000000000000000 ) ) ;
#120 = CARTESIAN_POINT ( 'NONE',  ( 0.0000000000000000000, -6.388194301613416400, 0.0000000000000000000 ) ) ;
#121 = DIRECTION ( 'NONE',  ( 0.0000000000000000000, 1.000000000000000000, 0.0000000000000000000 ) ) ;
#122 = PRODUCT_DEFINITION_SHAPE ( 'NONE', 'NONE',  #159 ) ;
#123 = CARTESIAN_POINT ( 'NONE',  ( 0.0000000000000000000, -10.90000000000000900, 47.50000000000000000 ) ) ;
#124 = FACE_OUTER_BOUND ( 'NONE', #334, .T. ) ;
#125 = AXIS2_PLACEMENT_3D ( 'NONE', #176, #294, #204 ) ;
#126 = CARTESIAN_POINT ( 'NONE',  ( 0.0000000000000000000, -4.700000000000008200, 0.0000000000000000000 ) ) ;
#127 = CARTESIAN_POINT ( 'NONE',  ( 0.0000000000000000000, -11.70000000000000800, 46.69999999999999600 ) ) ;
#128 =( LENGTH_UNIT ( ) NAMED_UNIT ( * ) SI_UNIT ( .MILLI., .METRE. ) );
#129 = CARTESIAN_POINT ( 'NONE',  ( 0.0000000000000000000, -11.70000000000000800, 44.95000000000000300 ) ) ;
#130 = ADVANCED_FACE ( 'NONE', ( #254, #353 ), #279, .T. ) ;
#131 = AXIS2_PLACEMENT_3D ( 'NONE', #3, #266, #199 ) ;
#132 = EDGE_LOOP ( 'NONE', ( #308 ) ) ;
#133 = COLOUR_RGB ( '',0.7921568627450980000, 0.8196078431372548800, 0.9333333333333333500 ) ;
#134 = CIRCLE ( 'NONE', #198, 46.69999999999999600 ) ;
#135 = AXIS2_PLACEMENT_3D ( 'NONE', #214, #147, #235 ) ;
#136 = UNCERTAINTY_MEASURE_WITH_UNIT (LENGTH_MEASURE( 1.000000000000000100E-005 ), #338, 'distance_accuracy_value', 'NONE');
#137 = ORIENTED_EDGE ( 'NONE', *, *, #89, .T. ) ;
#138 = VERTEX_POINT ( 'NONE', #158 ) ;
#139 =( GEOMETRIC_REPRESENTATION_CONTEXT ( 3 ) GLOBAL_UNCERTAINTY_ASSIGNED_CONTEXT ( ( #192 ) ) GLOBAL_UNIT_ASSIGNED_CONTEXT ( ( #128, #341, #83 ) ) REPRESENTATION_CONTEXT ( 'NONE', 'WORKASPACE' ) );
#140 = EDGE_LOOP ( 'NONE', ( #346 ) ) ;
#141 = ORIENTED_EDGE ( 'NONE', *, *, #285, .T. ) ;
#142 = PRESENTATION_LAYER_ASSIGNMENT (  '', '', ( #27 ) ) ;
#143 = DIRECTION ( 'NONE',  ( 0.0000000000000000000, -0.0000000000000000000, 1.000000000000000000 ) ) ;
#144 = FACE_BOUND ( 'NONE', #319, .T. ) ;
#145 = DIRECTION ( 'NONE',  ( 0.0000000000000000000, 1.000000000000000000, 0.0000000000000000000 ) ) ;
#146 = DIRECTION ( 'NONE',  ( -0.0000000000000000000, -1.000000000000000000, -0.0000000000000000000 ) ) ;
#147 = DIRECTION ( 'NONE',  ( -0.0000000000000000000, -1.000000000000000000, -0.0000000000000000000 ) ) ;
#148 = EDGE_LOOP ( 'NONE', ( #165 ) ) ;
#149 = DIRECTION ( 'NONE',  ( 0.0000000000000000000, 0.0000000000000000000, -1.000000000000000000 ) ) ;
#150 = FACE_OUTER_BOUND ( 'NONE', #267, .T. ) ;
#151 = PLANE ( 'NONE',  #219 ) ;
#152 = PLANE ( 'NONE',  #295 ) ;
#153 = FILL_AREA_STYLE_COLOUR ( '', #100 ) ;
#154 = PRODUCT_DEFINITION_FORMATION_WITH_SPECIFIED_SOURCE ( 'ANY', '', #289, .NOT_KNOWN. ) ;
#155 = CIRCLE ( 'NONE', #23, 47.32352941176471000 ) ;
#156 = AXIS2_PLACEMENT_3D ( 'NONE', #92, #296, #239 ) ;
#157 = EDGE_LOOP ( 'NONE', ( #297 ) ) ;
#158 = CARTESIAN_POINT ( 'NONE',  ( 0.0000000000000000000, -6.388194301613416400, 47.50000000000000000 ) ) ;
#159 = PRODUCT_DEFINITION ( 'UNKNOWN', '', #154, #242 ) ;
#160 = VERTEX_POINT ( 'NONE', #53 ) ;
#161 = EDGE_LOOP ( 'NONE', ( #374 ) ) ;
#162 = FACE_BOUND ( 'NONE', #362, .T. ) ;
#163 = VERTEX_POINT ( 'NONE', #69 ) ;
#164 = AXIS2_PLACEMENT_3D ( 'NONE', #6, #171, #143 ) ;
#165 = ORIENTED_EDGE ( 'NONE', *, *, #51, .T. ) ;
#166 = SURFACE_STYLE_FILL_AREA ( #101 ) ;
#167 = FACE_OUTER_BOUND ( 'NONE', #231, .T. ) ;
#168 = FACE_OUTER_BOUND ( 'NONE', #335, .T. ) ;
#169 =( GEOMETRIC_REPRESENTATION_CONTEXT ( 3 ) GLOBAL_UNCERTAINTY_ASSIGNED_CONTEXT ( ( #136 ) ) GLOBAL_UNIT_ASSIGNED_CONTEXT ( ( #338, #81, #220 ) ) REPRESENTATION_CONTEXT ( 'NONE', 'WORKASPACE' ) );
#170 = PLANE ( 'NONE',  #164 ) ;
#171 = DIRECTION ( 'NONE',  ( 0.0000000000000000000, 1.000000000000000000, 0.0000000000000000000 ) ) ;
#172 = ORIENTED_EDGE ( 'NONE', *, *, #291, .T. ) ;
#173 = PRESENTATION_STYLE_ASSIGNMENT (( #15 ) ) ;
#174 = AXIS2_PLACEMENT_3D ( 'NONE', #120, #329, #7 ) ;
#175 = DIRECTION ( 'NONE',  ( 0.0000000000000000000, 0.0000000000000000000, 1.000000000000000000 ) ) ;
#176 = CARTESIAN_POINT ( 'NONE',  ( 0.0000000000000000000, -10.90000000000000900, 0.0000000000000000000 ) ) ;
#177 = EDGE_LOOP ( 'NONE', ( #36 ) ) ;
#178 = DIRECTION ( 'NONE',  ( 0.0000000000000000000, 0.0000000000000000000, 1.000000000000000000 ) ) ;
#179 = CARTESIAN_POINT ( 'NONE',  ( 0.0000000000000000000, 102.3116015902537000, 0.0000000000000000000 ) ) ;
#180 = CARTESIAN_POINT ( 'NONE',  ( 0.0000000000000000000, 0.2999999999999895000, 0.0000000000000000000 ) ) ;
#181 = DIRECTION ( 'NONE',  ( 0.0000000000000000000, 0.0000000000000000000, -1.000000000000000000 ) ) ;
#182 = PRODUCT_RELATED_PRODUCT_CATEGORY ( 'part', '', ( #289 ) ) ;
#183 = FACE_OUTER_BOUND ( 'NONE', #236, .T. ) ;
#184 = FACE_OUTER_BOUND ( 'NONE', #109, .T. ) ;
#185 = DIRECTION ( 'NONE',  ( 0.0000000000000000000, 0.0000000000000000000, -1.000000000000000000 ) ) ;
#186 = FACE_BOUND ( 'NONE', #157, .T. ) ;
#187 =( NAMED_UNIT ( * ) SI_UNIT ( $, .STERADIAN. ) SOLID_ANGLE_UNIT ( ) );
#188 = MECHANICAL_DESIGN_GEOMETRIC_PRESENTATION_REPRESENTATION (  '', ( #27 ), #202 ) ;
#189 = ORIENTED_EDGE ( 'NONE', *, *, #226, .F. ) ;
#190 = ORIENTED_EDGE ( 'NONE', *, *, #226, .T. ) ;
#191 = CARTESIAN_POINT ( 'NONE',  ( 0.0000000000000000000, -3.210416792694063700, 47.32352941176471000 ) ) ;
#192 = UNCERTAINTY_MEASURE_WITH_UNIT (LENGTH_MEASURE( 1.000000000000000100E-005 ), #128, 'distance_accuracy_value', 'NONE');
#193 = FACE_OUTER_BOUND ( 'NONE', #114, .T. ) ;
#194 = PLANE ( 'NONE',  #31 ) ;
#195 = FACE_BOUND ( 'NONE', #29, .T. ) ;
#196 = ORIENTED_EDGE ( 'NONE', *, *, #307, .F. ) ;
#197 = ORIENTED_EDGE ( 'NONE', *, *, #285, .F. ) ;
#198 = AXIS2_PLACEMENT_3D ( 'NONE', #180, #298, #65 ) ;
#199 = DIRECTION ( 'NONE',  ( 0.0000000000000000000, 0.0000000000000000000, 1.000000000000000000 ) ) ;
#200 = EDGE_CURVE ( 'NONE', #323, #323, #347, .T. ) ;
#201 = ORIENTED_EDGE ( 'NONE', *, *, #261, .T. ) ;
#202 =( GEOMETRIC_REPRESENTATION_CONTEXT ( 3 ) GLOBAL_UNCERTAINTY_ASSIGNED_CONTEXT ( ( #360 ) ) GLOBAL_UNIT_ASSIGNED_CONTEXT ( ( #74, #364, #187 ) ) REPRESENTATION_CONTEXT ( 'NONE', 'WORKASPACE' ) );
#203 = DIRECTION ( 'NONE',  ( 0.0000000000000000000, 0.0000000000000000000, -1.000000000000000000 ) ) ;
#204 = DIRECTION ( 'NONE',  ( 0.0000000000000000000, 0.0000000000000000000, 1.000000000000000000 ) ) ;
#205 = FACE_OUTER_BOUND ( 'NONE', #38, .T. ) ;
#206 = DIRECTION ( 'NONE',  ( 0.0000000000000000000, -1.000000000000000000, -0.0000000000000000000 ) ) ;
#207 = DIRECTION ( 'NONE',  ( 0.0000000000000000000, 0.0000000000000000000, -1.000000000000000000 ) ) ;
#208 = DIRECTION ( 'NONE',  ( 0.0000000000000000000, 1.000000000000000000, 0.0000000000000000000 ) ) ;
#209 = CARTESIAN_POINT ( 'NONE',  ( 35.04999999999999700, 0.2999999999999899400, 0.0000000000000000000 ) ) ;
#210 = MANIFOLD_SOLID_BREP ( 'collerette tube', #304 ) ;
#211 = CARTESIAN_POINT ( 'NONE',  ( 0.0000000000000000000, -6.189583207305960700, 0.0000000000000000000 ) ) ;
#212 = DIRECTION ( 'NONE',  ( 0.0000000000000000000, 1.000000000000000000, 0.0000000000000000000 ) ) ;
#213 = EDGE_LOOP ( 'NONE', ( #86 ) ) ;
#214 = CARTESIAN_POINT ( 'NONE',  ( 0.0000000000000000000, 0.2999999999999912700, 0.0000000000000000000 ) ) ;
#215 = CARTESIAN_POINT ( 'NONE',  ( 0.0000000000000000000, -4.400000000000010100, 0.0000000000000000000 ) ) ;
#216 = ADVANCED_FACE ( 'NONE', ( #150, #78 ), #310, .F. ) ;
#217 = CARTESIAN_POINT ( 'NONE',  ( 0.0000000000000000000, -11.90000000000000000, 0.0000000000000000000 ) ) ;
#218 = CIRCLE ( 'NONE', #11, 44.95000000000000300 ) ;
#219 = AXIS2_PLACEMENT_3D ( 'NONE', #209, #355, #42 ) ;
#220 =( NAMED_UNIT ( * ) SI_UNIT ( $, .STERADIAN. ) SOLID_ANGLE_UNIT ( ) );
#221 = EDGE_LOOP ( 'NONE', ( #201 ) ) ;
#222 = CARTESIAN_POINT ( 'NONE',  ( 0.0000000000000000000, -0.5000000000000108800, 47.50000000000000000 ) ) ;
#223 = FACE_BOUND ( 'NONE', #177, .T. ) ;
#224 = ADVANCED_FACE ( 'NONE', ( #223, #1 ), #152, .T. ) ;
#225 = APPLICATION_CONTEXT ( 'automotive_design' ) ;
#226 = EDGE_CURVE ( 'NONE', #234, #234, #117, .T. ) ;
#227 = EDGE_LOOP ( 'NONE', ( #67 ) ) ;
#228 = CARTESIAN_POINT ( 'NONE',  ( 0.0000000000000000000, -4.400000000000010100, 35.00000000000000700 ) ) ;
#229 = EDGE_CURVE ( 'NONE', #265, #265, #299, .T. ) ;
#230 = FACE_OUTER_BOUND ( 'NONE', #337, .T. ) ;
#231 = EDGE_LOOP ( 'NONE', ( #243 ) ) ;
#232 = VERTEX_POINT ( 'NONE', #191 ) ;
#233 = DIRECTION ( 'NONE',  ( 0.0000000000000000000, 0.0000000000000000000, 1.000000000000000000 ) ) ;
#234 = VERTEX_POINT ( 'NONE', #238 ) ;
#235 = DIRECTION ( 'NONE',  ( 0.0000000000000000000, 0.0000000000000000000, -1.000000000000000000 ) ) ;
#236 = EDGE_LOOP ( 'NONE', ( #110 ) ) ;
#237 = AXIS2_PLACEMENT_3D ( 'NONE', #240, #271, #301 ) ;
#238 = CARTESIAN_POINT ( 'NONE',  ( 0.0000000000000000000, -6.300000000000014000, -38.39999999999999900 ) ) ;
#239 = DIRECTION ( 'NONE',  ( 0.0000000000000000000, 0.0000000000000000000, 1.000000000000000000 ) ) ;
#240 = CARTESIAN_POINT ( 'NONE',  ( 0.0000000000000000000, 0.2999999999999895000, 0.0000000000000000000 ) ) ;
#241 = DIRECTION ( 'NONE',  ( 0.0000000000000000000, 0.0000000000000000000, 1.000000000000000000 ) ) ;
#242 = PRODUCT_DEFINITION_CONTEXT ( 'detailed design', #225, 'design' ) ;
#243 = ORIENTED_EDGE ( 'NONE', *, *, #261, .F. ) ;
#244 = EDGE_CURVE ( 'NONE', #317, #317, #134, .T. ) ;
#245 = CYLINDRICAL_SURFACE ( 'NONE', #257, 35.04999999999999700 ) ;
#246 = ADVANCED_FACE ( 'NONE', ( #373, #75 ), #151, .T. ) ;
#247 = DIRECTION ( 'NONE',  ( 0.0000000000000000000, 1.000000000000000000, 0.0000000000000000000 ) ) ;
#248 = AXIS2_PLACEMENT_3D ( 'NONE', #354, #212, #241 ) ;
#249 = ORIENTED_EDGE ( 'NONE', *, *, #64, .F. ) ;
#250 = FILL_AREA_STYLE_COLOUR ( '', #133 ) ;
#251 = CIRCLE ( 'NONE', #370, 38.39999999999999900 ) ;
#252 = FACE_BOUND ( 'NONE', #327, .T. ) ;
#253 = ORIENTED_EDGE ( 'NONE', *, *, #274, .T. ) ;
#254 = FACE_OUTER_BOUND ( 'NONE', #221, .T. ) ;
#255 = AXIS2_PLACEMENT_3D ( 'NONE', #211, #68, #175 ) ;
#256 = VERTEX_POINT ( 'NONE', #129 ) ;
#257 = AXIS2_PLACEMENT_3D ( 'NONE', #217, #49, #178 ) ;
#258 = CARTESIAN_POINT ( 'NONE',  ( 0.0000000000000000000, 0.2999999999999912700, 0.0000000000000000000 ) ) ;
#259 = CONICAL_SURFACE ( 'NONE', #125, 47.50000000000000000, 0.7853981633974492800 ) ;
#260 = FACE_OUTER_BOUND ( 'NONE', #140, .T. ) ;
#261 = EDGE_CURVE ( 'NONE', #138, #138, #84, .T. ) ;
#262 = ORIENTED_EDGE ( 'NONE', *, *, #333, .T. ) ;
#263 = AXIS2_PLACEMENT_3D ( 'NONE', #300, #146, #207 ) ;
#264 = ORIENTED_EDGE ( 'NONE', *, *, #51, .F. ) ;
#265 = VERTEX_POINT ( 'NONE', #25 ) ;
#266 = DIRECTION ( 'NONE',  ( 0.0000000000000000000, 1.000000000000000000, 0.0000000000000000000 ) ) ;
#267 = EDGE_LOOP ( 'NONE', ( #172 ) ) ;
#268 = DIRECTION ( 'NONE',  ( 0.0000000000000000000, 1.000000000000000000, 0.0000000000000000000 ) ) ;
#269 = CARTESIAN_POINT ( 'NONE',  ( 0.0000000000000000000, -11.90000000000000000, 0.0000000000000000000 ) ) ;
#270 = PRESENTATION_STYLE_ASSIGNMENT (( #314 ) ) ;
#271 = DIRECTION ( 'NONE',  ( -0.0000000000000000000, -1.000000000000000000, -0.0000000000000000000 ) ) ;
#272 = DIRECTION ( 'NONE',  ( -0.0000000000000000000, -1.000000000000000000, -0.0000000000000000000 ) ) ;
#273 = DIRECTION ( 'NONE',  ( 0.0000000000000000000, 1.000000000000000000, 0.0000000000000000000 ) ) ;
#274 = EDGE_CURVE ( 'NONE', #339, #339, #288, .T. ) ;
#275 = FACE_OUTER_BOUND ( 'NONE', #48, .T. ) ;
#276 = DIRECTION ( 'NONE',  ( 0.0000000000000000000, 0.0000000000000000000, 1.000000000000000000 ) ) ;
#277 = ADVANCED_FACE ( 'NONE', ( #230, #205 ), #4, .F. ) ;
#278 = EDGE_LOOP ( 'NONE', ( #196 ) ) ;
#279 = TOROIDAL_SURFACE ( 'NONE', #99, 47.29999999999999700, 0.2000000000000043700 ) ;
#280 = AXIS2_PLACEMENT_3D ( 'NONE', #9, #268, #358 ) ;
#281 = SURFACE_SIDE_STYLE ('',( #166 ) ) ;
#282 = APPLICATION_PROTOCOL_DEFINITION ( 'draft international standard', 'automotive_design', 1998, #225 ) ;
#283 = DIRECTION ( 'NONE',  ( 0.0000000000000000000, 0.0000000000000000000, 1.000000000000000000 ) ) ;
#284 = ADVANCED_FACE ( 'NONE', ( #184, #144 ), #306, .T. ) ;
#285 = EDGE_CURVE ( 'NONE', #312, #312, #106, .T. ) ;
#286 = CARTESIAN_POINT ( 'NONE',  ( 0.0000000000000000000, -6.300000000000012300, -35.00000000000000700 ) ) ;
#287 = AXIS2_PLACEMENT_3D ( 'NONE', #39, #326, #357 ) ;
#288 = CIRCLE ( 'NONE', #118, 35.00000000000000700 ) ;
#289 = PRODUCT ( 'BS1ISOK6376 FULLVAC', 'BS1ISOK6376 FULLVAC', '', ( #22 ) ) ;
#290 = ORIENTED_EDGE ( 'NONE', *, *, #291, .F. ) ;
#291 = EDGE_CURVE ( 'NONE', #160, #160, #63, .T. ) ;
#292 = EDGE_LOOP ( 'NONE', ( #190 ) ) ;
#293 = VERTEX_POINT ( 'NONE', #286 ) ;
#294 = DIRECTION ( 'NONE',  ( 0.0000000000000000000, 1.000000000000000000, 0.0000000000000000000 ) ) ;
#295 = AXIS2_PLACEMENT_3D ( 'NONE', #303, #363, #185 ) ;
#296 = DIRECTION ( 'NONE',  ( 0.0000000000000000000, 1.000000000000000000, 0.0000000000000000000 ) ) ;
#297 = ORIENTED_EDGE ( 'NONE', *, *, #322, .T. ) ;
#298 = DIRECTION ( 'NONE',  ( 0.0000000000000000000, 1.000000000000000000, 0.0000000000000000000 ) ) ;
#299 = CIRCLE ( 'NONE', #280, 44.95000000000000300 ) ;
#300 = CARTESIAN_POINT ( 'NONE',  ( 0.0000000000000000000, -6.300000000000012300, 0.0000000000000000000 ) ) ;
#301 = DIRECTION ( 'NONE',  ( 0.0000000000000000000, 0.0000000000000000000, -1.000000000000000000 ) ) ;
#302 = DIRECTION ( 'NONE',  ( 0.0000000000000000000, 0.0000000000000000000, 1.000000000000000000 ) ) ;
#303 = CARTESIAN_POINT ( 'NONE',  ( 31.96078076153821000, -6.300000000000012300, 0.0000000000000000000 ) ) ;
#304 = CLOSED_SHELL ( 'NONE', ( #58, #340, #79, #47, #77, #71, #130, #216, #313, #102, #284, #246, #356, #54, #224, #277 ) ) ;
#305 = EDGE_CURVE ( 'NONE', #14, #14, #366, .T. ) ;
#306 = CONICAL_SURFACE ( 'NONE', #237, 46.69999999999999600, 0.7853981633974492800 ) ;
#307 = EDGE_CURVE ( 'NONE', #80, #80, #111, .T. ) ;
#308 = ORIENTED_EDGE ( 'NONE', *, *, #333, .F. ) ;
#309 = CARTESIAN_POINT ( 'NONE',  ( 0.0000000000000000000, 0.2999999999999912700, 35.04999999999999700 ) ) ;
#310 = TOROIDAL_SURFACE ( 'NONE', #28, 47.50000000000000000, 1.499999999999999800 ) ;
#311 = DIRECTION ( 'NONE',  ( 1.000000000000000000, 0.0000000000000000000, 0.0000000000000000000 ) ) ;
#312 = VERTEX_POINT ( 'NONE', #222 ) ;
#313 = ADVANCED_FACE ( 'NONE', ( #168, #34 ), #344, .T. ) ;
#314 = SURFACE_STYLE_USAGE ( .BOTH. , #281 ) ;
#315 = CARTESIAN_POINT ( 'NONE',  ( 0.0000000000000000000, -11.70000000000000800, 0.0000000000000000000 ) ) ;
#316 = CARTESIAN_POINT ( 'NONE',  ( 0.0000000000000000000, 0.2999999999999895000, 46.69999999999999600 ) ) ;
#317 = VERTEX_POINT ( 'NONE', #316 ) ;
#318 = ORIENTED_EDGE ( 'NONE', *, *, #305, .F. ) ;
#319 = EDGE_LOOP ( 'NONE', ( #330 ) ) ;
#320 = ORIENTED_EDGE ( 'NONE', *, *, #305, .T. ) ;
#321 = FACE_OUTER_BOUND ( 'NONE', #292, .T. ) ;
#322 = EDGE_CURVE ( 'NONE', #256, #256, #218, .T. ) ;
#323 = VERTEX_POINT ( 'NONE', #123 ) ;
#324 = ORIENTED_EDGE ( 'NONE', *, *, #35, .F. ) ;
#325 = AXIS2_PLACEMENT_3D ( 'NONE', #37, #206, #181 ) ;
#326 = DIRECTION ( 'NONE',  ( 0.0000000000000000000, 1.000000000000000000, 0.0000000000000000000 ) ) ;
#327 = EDGE_LOOP ( 'NONE', ( #76 ) ) ;
#328 = DIRECTION ( 'NONE',  ( 0.0000000000000000000, 0.0000000000000000000, 1.000000000000000000 ) ) ;
#329 = DIRECTION ( 'NONE',  ( 0.0000000000000000000, 1.000000000000000000, 0.0000000000000000000 ) ) ;
#330 = ORIENTED_EDGE ( 'NONE', *, *, #244, .F. ) ;
#331 = DIRECTION ( 'NONE',  ( 0.0000000000000000000, 0.0000000000000000000, 1.000000000000000000 ) ) ;
#332 = FACE_OUTER_BOUND ( 'NONE', #8, .T. ) ;
#333 = EDGE_CURVE ( 'NONE', #232, #232, #155, .T. ) ;
#334 = EDGE_LOOP ( 'NONE', ( #318 ) ) ;
#335 = EDGE_LOOP ( 'NONE', ( #262 ) ) ;
#336 = SURFACE_STYLE_FILL_AREA ( #46 ) ;
#337 = EDGE_LOOP ( 'NONE', ( #253 ) ) ;
#338 =( LENGTH_UNIT ( ) NAMED_UNIT ( * ) SI_UNIT ( .MILLI., .METRE. ) );
#339 = VERTEX_POINT ( 'NONE', #228 ) ;
#340 = ADVANCED_FACE ( 'NONE', ( #260, #195 ), #194, .T. ) ;
#341 =( NAMED_UNIT ( * ) PLANE_ANGLE_UNIT ( ) SI_UNIT ( $, .RADIAN. ) );
#342 = MECHANICAL_DESIGN_GEOMETRIC_PRESENTATION_REPRESENTATION (  '', ( #348 ), #169 ) ;
#343 = CYLINDRICAL_SURFACE ( 'NONE', #16, 44.95000000000000300 ) ;
#344 = TOROIDAL_SURFACE ( 'NONE', #368, 47.29999999999999700, 0.2000000000000043700 ) ;
#345 = EDGE_LOOP ( 'NONE', ( #189 ) ) ;
#346 = ORIENTED_EDGE ( 'NONE', *, *, #229, .F. ) ;
#347 = CIRCLE ( 'NONE', #60, 47.50000000000000000 ) ;
#348 = STYLED_ITEM ( 'NONE', ( #270 ), #19 ) ;
#349 = DIRECTION ( 'NONE',  ( 0.0000000000000000000, 1.000000000000000000, 0.0000000000000000000 ) ) ;
#350 = DIRECTION ( 'NONE',  ( 0.0000000000000000000, 1.000000000000000000, 0.0000000000000000000 ) ) ;
#351 = FACE_OUTER_BOUND ( 'NONE', #82, .T. ) ;
#352 = CARTESIAN_POINT ( 'NONE',  ( 0.0000000000000000000, -11.90000000000000000, 0.0000000000000000000 ) ) ;
#353 = FACE_OUTER_BOUND ( 'NONE', #88, .T. ) ;
#354 = CARTESIAN_POINT ( 'NONE',  ( 0.0000000000000000000, -11.90000000000000000, 0.0000000000000000000 ) ) ;
#355 = DIRECTION ( 'NONE',  ( 0.0000000000000000000, 1.000000000000000000, 0.0000000000000000000 ) ) ;
#356 = ADVANCED_FACE ( 'NONE', ( #97, #45 ), #245, .F. ) ;
#357 = DIRECTION ( 'NONE',  ( 0.0000000000000000000, 0.0000000000000000000, 1.000000000000000000 ) ) ;
#358 = DIRECTION ( 'NONE',  ( 0.0000000000000000000, 0.0000000000000000000, 1.000000000000000000 ) ) ;
#359 = DIRECTION ( 'NONE',  ( 0.0000000000000000000, 1.000000000000000000, 0.0000000000000000000 ) ) ;
#360 = UNCERTAINTY_MEASURE_WITH_UNIT (LENGTH_MEASURE( 1.000000000000000100E-005 ), #74, 'distance_accuracy_value', 'NONE');
#361 = DIRECTION ( 'NONE',  ( 0.0000000000000000000, 1.000000000000000000, 0.0000000000000000000 ) ) ;
#362 = EDGE_LOOP ( 'NONE', ( #320 ) ) ;
#363 = DIRECTION ( 'NONE',  ( 0.0000000000000000000, -1.000000000000000000, -0.0000000000000000000 ) ) ;
#364 =( NAMED_UNIT ( * ) PLANE_ANGLE_UNIT ( ) SI_UNIT ( $, .RADIAN. ) );
#365 = AXIS2_PLACEMENT_3D ( 'NONE', #179, #272, #149 ) ;
#366 = CIRCLE ( 'NONE', #131, 46.69999999999999600 ) ;
#367 = EDGE_LOOP ( 'NONE', ( #324 ) ) ;
#368 = AXIS2_PLACEMENT_3D ( 'NONE', #41, #2, #33 ) ;
#369 = DIRECTION ( 'NONE',  ( 0.0000000000000000000, 0.0000000000000000000, 1.000000000000000000 ) ) ;
#370 = AXIS2_PLACEMENT_3D ( 'NONE', #119, #113, #90 ) ;
#371 = FACE_OUTER_BOUND ( 'NONE', #148, .T. ) ;
#372 = DIRECTION ( 'NONE',  ( 0.0000000000000000000, 1.000000000000000000, 0.0000000000000000000 ) ) ;
#373 = FACE_OUTER_BOUND ( 'NONE', #227, .T. ) ;
#374 = ORIENTED_EDGE ( 'NONE', *, *, #307, .T. ) ;
ENDSEC;
END-ISO-10303-21;
